Sinterklaasliedjes gitaar: De leukste gitaarliedjes op de gitaar!

Sinterklaas en zijn zwarte pieten komen weer bijna weer in het land, en daarbij kunnen de sinterklaasliedjes natuurlijk niet ontbreken.

En kan je zelf of je kind al een leuk deuntje op de gitaar spelen? Dan het is natuurlijk geweldig om met de hele familie en/of vrienden leuke sinterklaasliedjes op de gitaar te spelen op 5 december.

Daarom heb ik speciaal voor jou de leukste sinterklaasliedjes op gitaar op een rijtje gezet.

Sinterklaasliedje gitaar 1: Sinterklaas kapoentje

Wie kent nu het welbekende sinterklaas kapoentje nou niet? Zeker een makkelijk, maar een leuk sinterklaasliedje om zelf of samen met je kind te spelen.

Om het liedje te leren heb ik voor je de onderstaande tab:

e|---------0--0------|---------0--0-------|-----------------|-0---------------------|
B|--3--3--------3--0-|-3--3----------3--0-|-1--1--1-----1--1|----3--1--0------------|
G|-------------------|--------------------|----------2------|-------------2--0------|
D|-------------------|--------------------|-----------------|-----------------------|
A|-------------------|--------------------|-----------------|-----------------------|
E|-------------------|--------------------|-----------------|-----------------------|

Naast de tablatuur heb ik een video voor je waar stap voor stap wordt uitgelegd hoe je sinterklaas kapoentje speelt:

Sinterklaasliedje gitaar  2: Daar wordt aan de deur geklopt

Het sinterklaas liedje Daar wordt aan de deur geklopt hoort natuurlijk ook bij de verzameling leuke sinterklaasliedjes voor de gitaar.

Net zoals Sinterklaas Kapoentje is het een leuk liedje om op de gitaar te spelen. Het is een klein beetje moeilijker te spelen omdat er 4 snaren aangeslagen moeten worden. Maar dat mag de pret zeker niet drukken.

Hieronder kan je de tablatuur vinden:

Daar      wordt aan    de          
E|------------------0----------------| 
B|-------3---------------3-----1-----| 
G|-----------------------------------| 
D|-----------------------------------| 
A|-----------------------------------| 
E|-----------------------------------| 

  deur       ge  -   klopt,
E|-----------------------------------| 
B|--0--------------------------------| 
G|------------0---------0------------| 
D|-----------------------------------| 
A|-----------------------------------| 
E|-----------------------------------| 

  hard       ge  -   klopt,
E|-----------------------------------| 
B|-----------------------------------| 
G|--2--------------------------------| 
D|------------0---------0------------| 
A|-----------------------------------| 
E|-----------------------------------| 

  zacht     ge  -   klopt
E|-----------------------------------| 
B|--0--------------------------------| 
G|-----------0---------0-------------| 
D|-----------------------------------| 
A|-----------------------------------| 
E|-----------------------------------| 

       Daar      wordt aan    de          
E|------------------0----------------| 
B|-------3---------------3-----1-----| 
G|-----------------------------------| 
D|-----------------------------------| 
A|-----------------------------------| 
E|-----------------------------------| 

  deur       ge  -   klopt,
E|-----------------------------------| 
B|--0--------------------------------| 
G|------------0---------0------------| 
D|-----------------------------------| 
A|-----------------------------------| 
E|-----------------------------------| 

  wie       zou       dat    zijn?
E|-----------------------------------| 
B|-----------------------------------| 
G|--2---------------------------0----| 
D|------------0---------0------------| 
A|-----------------------------------| 
E|-----------------------------------| 

[Verse 2]
  Wees  maar  ge - rust  mijn  kind,
E|-----------------------------------| 
B|-------------------0---------------| 
G|--2----------------------0-----0---| 
D|--------0----0---------------------| 
A|-----------------------------------| 
E|-----------------------------------| 

  ik  ben  een    goe  -  de  vrind.         
E|-----------------------------------| 
B|------------------0----------------| 
G|--2----------------------0-----0---| 
D|------0----0-----------------------| 
A|-----------------------------------| 
E|-----------------------------------| 

  Want  al ben ik  zwart  als  roet,
E|-------0---------------------------| 
B|--3--------3---1---0---------------| 
G|--------------------------0----0---| 
D|-----------------------------------| 
A|-----------------------------------| 
E|-----------------------------------| 

  'kmeen  het   wel   goed.
E|-----------------------------------|
B|-----------------------------------| 
G|----2------------------0-----------| 
D|----------0-----0------------------| 
A|-----------------------------------| 
E|-----------------------------------

Hieronder vind je nog een duidelijke stap voor stap instructievideo:

Sinterklaasliedje gitaar 3: Sinterklaas is jarig

Op 5 december is Sinterklaas natuurlijk jarig, en dat moet zeker gevierd worden. Dat kunnen we natuurlijk het beste doen door het leuke liedje Sinterklaas is jarig te spelen.

Daarom heb ik voor jou de onderstaande tablatuur:

10.Sinterklaas is jarig

C                                                  
 sinterklaas is jarig
   F                  C                              
'k  zet m’n schoentje  klaar
G7                   C                                
  'licht dat hij hem  vol doet
D7                   G                                
  met ja wist ik het  maar
C               G7                                   
  ook leg ik wat  haver
       G                                           
en wat  hooi voor 't paard
               F                                 
want dat trouwe  beestje
G7                C                                   
  is dat heus wel  waard
C                                                  
  als de meisjes slapen
F               C                                    
  komt de goede  sint
G7             C                                       
  die van alle  kind'ren
D7                 G                                 
  ons het meest be-  mint
C                  G7                                
  paardje zwaar be-  laden
                   C                              
trekt hij met zich  voort
                    F                             
en zijn knecht ver-  telt hem
G7                 C                                 
  wat hij heeft ge-  hoord
C                                                  
  sinterklaas is jarig
    F                C                              
'k  zet m’n schoentje  klaar
G7                  C                                
  'licht dat hij hem  vol doet
D7                  G                                
  met ja wist ik het  maar
C               G7                                    
  ook leg ik wat  haver
      G                                          
en wat  hooi voor 't paard
                F                                 
want dat trouwe  beestje
G7               C                                   
  is dat heus wel  waard

Ik kan goed begrijpen dat je nog niet alle akkoorden kent die in bovenstaande tablatuur zijn weergegeven. Daarom heb ik ook nog een duidelijke instructievideo voor je:

Sinterklaasliedje gitaar 4: Zie ginds komt de stoomboot

Het is altijd weer feest voor iedereen als de sint weer aankomt met de stoomboot. Daarom kan zie ginds komt de stoomboot natuurlijk ook niet missen.

Hieronder de tablatuur:

    C             G7                         C            
zie  ginds komt de  stoomboot uit Spanje weer  aan
    C               G7                      C             
hij  brengt ons sint  nicolaas ik zie hem al  staan
   G7             C            F      F#   G                    
hoe  huppelt zijn  paardje het  dek op  en  neer
    C         Am            F        G7   C                     
hoe  waaien de  wimpels - al  heen en  al  weer
    C                G7                        C          
zijn  knecht staat te  lachen en roept ons eens  toe
     C              G7                       C           
"wie  zoet is krijgt  lekkers wie stout is de  roe"
    G7          C             F        F#    G                   
ooh  lieve sint  nicolaas kom  ook eens  bij  mij
  C              Am                F      G7      C               
en  rij toch niet  stilletjes mijn  huisje  voor-  bij

En natuurlijk een handige instructievideo:

Sinterklaasliedje gitaar 5: Dag Sinterklaasje

Aan al het leuks komt natuurlijk ook een einde, maar niet getreurd. Met het liedje dag Sinterklaasje kunnen we op een leuke manier de sint weer uitzwaaien.

Hieronder de tablatuur van dag sinterklaasje:

C                                                  
  dag sinterklaasje, 
F      C                                                
 daag,  daag, 
Dm       C                                              
   daag,  daag 
D        G                                             
  zwarte  piet
C                                                  
   dag sinterklaasje, 
F       C                                              
  daag,  daag, 
Dm       C                                             
  luister  naar ons 
G         C                                           
  welkoms-  lied
G           C                                         
  afscheids-  lied

En natuurlijk de instructievideo:

Nog veel meer sinterklaasliedjes leren?

De liedjes hierboven zijn natuurlijk maar een klein gedeelte van alle sinterklaasliedjes. Als je veel meer populaire sinterklaasliedjes wilt leren, dan moet je zeker verder lezen.

De bekende online gitaarleraar Koen van Gitaarles van Koen heeft namelijk een online cursus opgezet waarbij je maar liefst 12 populaire sinterklaasliedjes in twee verschillende moeilijkheidsniveau´s kan leren spelen.

sinterklaasliedjes gitaar

Stel je eens voor:

  • Dat je op pakjesavond samen met je kinderen de leukste sinterklaasliedjes op de gitaar kan meespelen
  • De sinterklaas periode nog een stuk sfeervoller wordt met de hele familie
  • Dat jij ook nog een mooi cadeau terugkrijgt: De glimlach van je kinderen

Maar waarom zou je voor deze online cursus kiezen?

  • 24 professionele video opnames van hoge kwaliteit
  • Gitaarakkoorden + tablatuur van de 12 meest populair sinterklaasliedjes
  • Levenslange toegang tot het lesmateriaal. 24/7, 7 dagen per week
  • Direct ondersteuning van Koen zelf voor vragen of ondersteuning
  • Handige E-books bij elke videoles

Interesse gekregen? Ga nu naar de website van Koen en leer op een gemakkelijke wijze de 12 meest populaire sinterklaasliedjes!

Leer nu de 12 meest populaire sinterklaasliedjes!

Geef een reactie

Sluit Menu