Liedje van de week: The Joker

the jokerVandaag heb ik voor jou een gitaarrifje op het programma dat gemakkelijk te leren en te spelen is. Namelijk The Joker.

The Joker is een single van de Steve Miller band afkomstig van hun album The Joker(dezelfde naam dus). Het nummer kwam in de hitparade van de Verenigde staten op nummer 1 in 1974. In Nederland kwam het niet verder dan plaats 18.

Maar meer dan 16 jaar(in 1990) kwam het nummer wel op nummer 1 in Nederland. Het nummer werd ineens heel populair doordat het voorkwam in de Levi´s televisiereclame.

Interessant weetje is dat het liedje onterecht ¨Space Cowboy¨ wordt genoemd omdat dit voorkomt in de eerste zin van de tekst. Maar eigenlijk refereert deze zin juist naar een eerder nummer van de band, afkomstig uit het album Brave New World.

The Joker leren en meespelen

Om je een goed idee te geven hoe het rifje gaat, kan je in onderstaande video het nummer horen:

Het rifje dat gespeeld wordt bestaat uit de C, D en G akkoorden. Het is daarom slim om deze akkoorden in de vingers te hebben en het overpakken daarvan.

Gitaarles The Joker

In onderstaande video wordt heel duidelijk en stap voor stap voorgedaan hoe je het rifje speelt.

Tab The Joker

Hieronder kan je de tab van de The Joker vinden:

D||---------------------------|------------------------------|
A||---------------------------|------------------------------|
F||*--------------------------|------------------------------|
C||*----------------------0h2-|--0--0------------------------|
G||-----------0h2-3--3--------|----------0-2-3-3-3-3-2-2-0---|
D||---3--3--------------------|----------------------------2h|
 
                                                            3x
D|--------------------------|-------------------------------||
A|--------------------------|-------------------------------||
F|--------------------------|--------------------------0-0-*||
C|----------------------0-2-|--0--0----------------0h2-----*||
G|----------0-2-3--3--------|----------0-2-3-3-3-3----------||
D|--3--3--------------------|-------------------------------||
 
 
[Chorus]
 
D|---------------------------------|-------------------------------|
A|--------0--------------1---------|------0--------------1---------|
F|*-------0-----0----0---0-----0-0-|------0-------0----0-----------|
C|*-------0----------------0h2-----|------0-----0------2-----------|
G|----------0h2----3---3-----------|--------0h2-----3------2-2-0-0-|
D|---3--3--------------------------|--3----------------------------|
 
                                                              3x
D|-----------------------------|------------------------------||
A|-----------------------------|--3--3--3-3--3-1--1-----------||
F|------0---0---0-0---0-----0--|--2--2--2-2--2-0--0------0-0-*||
C|--------0---0---2-----0h2----|--0--0--0-0--0-2--2--0h2-----*||
G|----------------3------------|---------------3--3-----------||
D|--3--------------------------|------------------------------||
 
                  [End of Chorus]
D|------------------------0-0-||---------------------------|
A|--3--3--3-3--3-1--1--1--1-1-||---------------------------|
F|--2--2--2-2--2-0--0--0------||*--------------------------|
C|--0--0--0-0--0-2--2---------||*----------------------0h2-|
G|---------------3--3---------||-----------0h2-3--3--------|
D|----------------------------||---3--3--------------------|
 
D|------------------------------|--------------------------|
A|------------------------------|--------------------------|
F|------------------------------|--------------------------|
C|--0--0------------------------|----------------------0-2-|
G|----------0-2-3-3-3-3-2-2-0---|----------0-2-3--3--------|
D|----------------------------2h|--3--3--------------------|
 
                                 3x
D|-------------------------------||---------------------------------|
A|-------------------------------||--------0--------------1---------|
F|--------------------------0-0-*||*-------0-----0----0---0-----0-0-|
C|--0--0----------------0h2-----*||*-------0----------------0h2-----|
G|----------0-2-3-3-3-3----------||----------0h2----3---3-----------|
D|-------------------------------||---3--3--------------------------|
 
 
D|-------------------------------|-----------------------------|
A|------0--------------1---------|-----------------------------|
F|------0-------0----0-----------|------0---0---0-0---0-----0--|
C|------0-----0------2-----------|--------0---0---2-----0h2----|
G|--------0h2-----3------2-2-0-0-|----------------3------------|
D|--3----------------------------|--3--------------------------|
 
                                5x
D|------------------------------||------------------------0-0-|
A|--3--3--3-3--3-1--1-----------||--3--3--3-3--3-1--1--1--1-1-|
F|--2--2--2-2--2-0--0------0-0-*||--2--2--2-2--2-0--0--0------|
C|--0--0--0-0--0-2--2--0h2-----*||--0--0--0-0--0-2--2---------|
G|---------------3--3-----------||---------------3--3---------|
D|------------------------------||----------------------------|
 
 
D|---------------------------|------------------------------|
A|---------------------------|------------------------------|
F|*--------------------------|------------------------------|
C|*----------------------0h2-|--0--0------------------------|
G|-----------0h2-3--3--------|----------0-2-3-3-3-3-2-2-0---|
D|---3--3--------------------|----------------------------2h|
 
                                                            3x
D|--------------------------|-------------------------------||
A|--------------------------|-------------------------------||
F|--------------------------|--------------------------0-0-*||
C|----------------------0-2-|--0--0----------------0h2-----*||
G|----------0-2-3--3--------|----------0-2-3-3-3-3----------||
D|--3--3--------------------|-------------------------------||

Geef een reactie

Sluit Menu